ISO-10303-21;
HEADER;
/* Generated by software containing ST-Developer
 * from STEP Tools, Inc. (www.steptools.com) 
 */

FILE_DESCRIPTION(
/* description */ (''),
/* implementation_level */ '2;1');

FILE_NAME(
/* name */ 'eee7a44d-882f-4ac9-8c60-662c3dbffcc3.stp',
/* time_stamp */ '2022-10-25T19:49:45Z',
/* author */ (''),
/* organization */ (''),
/* preprocessor_version */ 'ST-DEVELOPER v19.2',
/* originating_system */ 'Autodesk Translation Framework v11.17.0.187',

/* authorisation */ '');

FILE_SCHEMA (('AUTOMOTIVE_DESIGN { 1 0 10303 214 3 1 1 }'));
ENDSEC;

DATA;
#10=MECHANICAL_DESIGN_GEOMETRIC_PRESENTATION_REPRESENTATION('',(#13),#206);
#11=SHAPE_REPRESENTATION_RELATIONSHIP('SRR','None',#213,#12);
#12=ADVANCED_BREP_SHAPE_REPRESENTATION('',(#14),#205);
#13=STYLED_ITEM('',(#222),#14);
#14=MANIFOLD_SOLID_BREP('Body1',#109);
#15=FACE_BOUND('',#35,.T.);
#16=PLANE('',#128);
#17=PLANE('',#134);
#18=PLANE('',#137);
#19=CYLINDRICAL_SURFACE('',#126,2.5);
#20=CYLINDRICAL_SURFACE('',#132,6.25);
#21=FACE_OUTER_BOUND('',#29,.T.);
#22=FACE_OUTER_BOUND('',#30,.T.);
#23=FACE_OUTER_BOUND('',#31,.T.);
#24=FACE_OUTER_BOUND('',#32,.T.);
#25=FACE_OUTER_BOUND('',#33,.T.);
#26=FACE_OUTER_BOUND('',#34,.T.);
#27=FACE_OUTER_BOUND('',#36,.T.);
#28=FACE_OUTER_BOUND('',#37,.T.);
#29=EDGE_LOOP('',(#74,#75,#76,#77));
#30=EDGE_LOOP('',(#78,#79,#80,#81));
#31=EDGE_LOOP('',(#82));
#32=EDGE_LOOP('',(#83,#84,#85,#86));
#33=EDGE_LOOP('',(#87,#88,#89,#90));
#34=EDGE_LOOP('',(#91));
#35=EDGE_LOOP('',(#92));
#36=EDGE_LOOP('',(#93,#94,#95,#96));
#37=EDGE_LOOP('',(#97));
#38=LINE('',#180,#43);
#39=LINE('',#184,#44);
#40=LINE('',#191,#45);
#41=LINE('',#195,#46);
#42=LINE('',#200,#47);
#43=VECTOR('',#144,2.375);
#44=VECTOR('',#149,2.5);
#45=VECTOR('',#158,6.125);
#46=VECTOR('',#163,6.25);
#47=VECTOR('',#170,6.125);
#48=CIRCLE('',#124,2.25);
#49=CIRCLE('',#125,2.5);
#50=CIRCLE('',#127,2.5);
#51=CIRCLE('',#130,6.);
#52=CIRCLE('',#131,6.25);
#53=CIRCLE('',#133,6.25);
#54=CIRCLE('',#136,6.);
#55=VERTEX_POINT('',#177);
#56=VERTEX_POINT('',#179);
#57=VERTEX_POINT('',#183);
#58=VERTEX_POINT('',#188);
#59=VERTEX_POINT('',#190);
#60=VERTEX_POINT('',#194);
#61=VERTEX_POINT('',#199);
#62=EDGE_CURVE('',#55,#55,#48,.T.);
#63=EDGE_CURVE('',#55,#56,#38,.T.);
#64=EDGE_CURVE('',#56,#56,#49,.T.);
#65=EDGE_CURVE('',#56,#57,#39,.T.);
#66=EDGE_CURVE('',#57,#57,#50,.T.);
#67=EDGE_CURVE('',#58,#58,#51,.T.);
#68=EDGE_CURVE('',#58,#59,#40,.T.);
#69=EDGE_CURVE('',#59,#59,#52,.T.);
#70=EDGE_CURVE('',#59,#60,#41,.T.);
#71=EDGE_CURVE('',#60,#60,#53,.T.);
#72=EDGE_CURVE('',#60,#61,#42,.T.);
#73=EDGE_CURVE('',#61,#61,#54,.T.);
#74=ORIENTED_EDGE('',*,*,#62,.T.);
#75=ORIENTED_EDGE('',*,*,#63,.T.);
#76=ORIENTED_EDGE('',*,*,#64,.T.);
#77=ORIENTED_EDGE('',*,*,#63,.F.);
#78=ORIENTED_EDGE('',*,*,#64,.F.);
#79=ORIENTED_EDGE('',*,*,#65,.T.);
#80=ORIENTED_EDGE('',*,*,#66,.F.);
#81=ORIENTED_EDGE('',*,*,#65,.F.);
#82=ORIENTED_EDGE('',*,*,#62,.F.);
#83=ORIENTED_EDGE('',*,*,#67,.T.);
#84=ORIENTED_EDGE('',*,*,#68,.T.);
#85=ORIENTED_EDGE('',*,*,#69,.T.);
#86=ORIENTED_EDGE('',*,*,#68,.F.);
#87=ORIENTED_EDGE('',*,*,#69,.F.);
#88=ORIENTED_EDGE('',*,*,#70,.T.);
#89=ORIENTED_EDGE('',*,*,#71,.F.);
#90=ORIENTED_EDGE('',*,*,#70,.F.);
#91=ORIENTED_EDGE('',*,*,#67,.F.);
#92=ORIENTED_EDGE('',*,*,#66,.T.);
#93=ORIENTED_EDGE('',*,*,#71,.T.);
#94=ORIENTED_EDGE('',*,*,#72,.T.);
#95=ORIENTED_EDGE('',*,*,#73,.T.);
#96=ORIENTED_EDGE('',*,*,#72,.F.);
#97=ORIENTED_EDGE('',*,*,#73,.F.);
#98=CONICAL_SURFACE('',#123,2.375,0.785398163397441);
#99=CONICAL_SURFACE('',#129,6.125,0.785398163397451);
#100=CONICAL_SURFACE('',#135,6.125,0.785398163397449);
#101=ADVANCED_FACE('',(#21),#98,.T.);
#102=ADVANCED_FACE('',(#22),#19,.T.);
#103=ADVANCED_FACE('',(#23),#16,.T.);
#104=ADVANCED_FACE('',(#24),#99,.T.);
#105=ADVANCED_FACE('',(#25),#20,.T.);
#106=ADVANCED_FACE('',(#26,#15),#17,.T.);
#107=ADVANCED_FACE('',(#27),#100,.T.);
#108=ADVANCED_FACE('',(#28),#18,.F.);
#109=CLOSED_SHELL('',(#101,#102,#103,#104,#105,#106,#107,#108));
#110=DERIVED_UNIT_ELEMENT(#112,1.);
#111=DERIVED_UNIT_ELEMENT(#208,-3.);
#112=(
MASS_UNIT()
NAMED_UNIT(*)
SI_UNIT(.KILO.,.GRAM.)
);
#113=DERIVED_UNIT((#110,#111));
#114=MEASURE_REPRESENTATION_ITEM('density measure',
POSITIVE_RATIO_MEASURE(7850.),#113);
#115=PROPERTY_DEFINITION_REPRESENTATION(#120,#117);
#116=PROPERTY_DEFINITION_REPRESENTATION(#121,#118);
#117=REPRESENTATION('material name',(#119),#205);
#118=REPRESENTATION('density',(#114),#205);
#119=DESCRIPTIVE_REPRESENTATION_ITEM('Steel','Steel');
#120=PROPERTY_DEFINITION('material property','material name',#215);
#121=PROPERTY_DEFINITION('material property','density of part',#215);
#122=AXIS2_PLACEMENT_3D('placement',#175,#138,#139);
#123=AXIS2_PLACEMENT_3D('',#176,#140,#141);
#124=AXIS2_PLACEMENT_3D('',#178,#142,#143);
#125=AXIS2_PLACEMENT_3D('',#181,#145,#146);
#126=AXIS2_PLACEMENT_3D('',#182,#147,#148);
#127=AXIS2_PLACEMENT_3D('',#185,#150,#151);
#128=AXIS2_PLACEMENT_3D('',#186,#152,#153);
#129=AXIS2_PLACEMENT_3D('',#187,#154,#155);
#130=AXIS2_PLACEMENT_3D('',#189,#156,#157);
#131=AXIS2_PLACEMENT_3D('',#192,#159,#160);
#132=AXIS2_PLACEMENT_3D('',#193,#161,#162);
#133=AXIS2_PLACEMENT_3D('',#196,#164,#165);
#134=AXIS2_PLACEMENT_3D('',#197,#166,#167);
#135=AXIS2_PLACEMENT_3D('',#198,#168,#169);
#136=AXIS2_PLACEMENT_3D('',#201,#171,#172);
#137=AXIS2_PLACEMENT_3D('',#202,#173,#174);
#138=DIRECTION('axis',(0.,0.,1.));
#139=DIRECTION('refdir',(1.,0.,0.));
#140=DIRECTION('center_axis',(0.,0.,-1.));
#141=DIRECTION('ref_axis',(1.,0.,0.));
#142=DIRECTION('center_axis',(0.,0.,-1.));
#143=DIRECTION('ref_axis',(1.,0.,0.));
#144=DIRECTION('',(-0.707106781186542,-8.65956056235487E-17,-0.707106781186553));
#145=DIRECTION('center_axis',(0.,0.,1.));
#146=DIRECTION('ref_axis',(1.,0.,0.));
#147=DIRECTION('center_axis',(0.,0.,1.));
#148=DIRECTION('ref_axis',(1.,0.,0.));
#149=DIRECTION('',(0.,0.,-1.));
#150=DIRECTION('center_axis',(0.,0.,-1.));
#151=DIRECTION('ref_axis',(1.,0.,0.));
#152=DIRECTION('center_axis',(0.,0.,1.));
#153=DIRECTION('ref_axis',(1.,0.,0.));
#154=DIRECTION('center_axis',(0.,0.,-1.));
#155=DIRECTION('ref_axis',(1.,0.,0.));
#156=DIRECTION('center_axis',(0.,0.,-1.));
#157=DIRECTION('ref_axis',(1.,0.,0.));
#158=DIRECTION('',(-0.707106781186549,-8.65956056235495E-17,-0.707106781186546));
#159=DIRECTION('center_axis',(0.,0.,1.));
#160=DIRECTION('ref_axis',(1.,0.,0.));
#161=DIRECTION('center_axis',(0.,0.,1.));
#162=DIRECTION('ref_axis',(1.,0.,0.));
#163=DIRECTION('',(0.,0.,-1.));
#164=DIRECTION('center_axis',(0.,0.,-1.));
#165=DIRECTION('ref_axis',(1.,0.,0.));
#166=DIRECTION('center_axis',(0.,0.,1.));
#167=DIRECTION('ref_axis',(1.,0.,0.));
#168=DIRECTION('center_axis',(0.,0.,1.));
#169=DIRECTION('ref_axis',(1.,0.,0.));
#170=DIRECTION('',(0.707106781186548,8.65956056235494E-17,-0.707106781186547));
#171=DIRECTION('center_axis',(0.,0.,1.));
#172=DIRECTION('ref_axis',(1.,0.,0.));
#173=DIRECTION('center_axis',(0.,0.,1.));
#174=DIRECTION('ref_axis',(1.,0.,0.));
#175=CARTESIAN_POINT('',(0.,0.,0.));
#176=CARTESIAN_POINT('Origin',(0.,0.,40.875));
#177=CARTESIAN_POINT('',(-2.25,2.75545529808154E-16,41.));
#178=CARTESIAN_POINT('Origin',(0.,0.,41.));
#179=CARTESIAN_POINT('',(-2.5,-3.06161699786838E-16,40.75));
#180=CARTESIAN_POINT('',(-2.375,-2.90853614797496E-16,40.875));
#181=CARTESIAN_POINT('Origin',(0.,0.,40.75));
#182=CARTESIAN_POINT('Origin',(0.,0.,34.));
#183=CARTESIAN_POINT('',(-2.5,-3.06161699786838E-16,34.));
#184=CARTESIAN_POINT('',(-2.5,-3.06161699786838E-16,34.));
#185=CARTESIAN_POINT('Origin',(0.,0.,34.));
#186=CARTESIAN_POINT('Origin',(0.,0.,41.));
#187=CARTESIAN_POINT('Origin',(0.,0.,33.875));
#188=CARTESIAN_POINT('',(-6.,7.34788079488412E-16,34.));
#189=CARTESIAN_POINT('Origin',(0.,0.,34.));
#190=CARTESIAN_POINT('',(-6.25,-7.65404249467096E-16,33.75));
#191=CARTESIAN_POINT('',(-6.125,-7.50096164477754E-16,33.875));
#192=CARTESIAN_POINT('Origin',(0.,0.,33.75));
#193=CARTESIAN_POINT('Origin',(0.,0.,0.));
#194=CARTESIAN_POINT('',(-6.25,7.65404249467096E-16,0.25));
#195=CARTESIAN_POINT('',(-6.25,-7.65404249467096E-16,0.));
#196=CARTESIAN_POINT('Origin',(0.,0.,0.25));
#197=CARTESIAN_POINT('Origin',(0.,0.,34.));
#198=CARTESIAN_POINT('Origin',(0.,0.,0.125));
#199=CARTESIAN_POINT('',(-6.,-7.34788079488412E-16,0.));
#200=CARTESIAN_POINT('',(-6.125,-7.50096164477754E-16,0.125));
#201=CARTESIAN_POINT('Origin',(0.,0.,0.));
#202=CARTESIAN_POINT('Origin',(0.,0.,0.));
#203=UNCERTAINTY_MEASURE_WITH_UNIT(LENGTH_MEASURE(0.01),#207,
'DISTANCE_ACCURACY_VALUE',
'Maximum model space distance between geometric entities at asserted c
onnectivities');
#204=UNCERTAINTY_MEASURE_WITH_UNIT(LENGTH_MEASURE(0.01),#207,
'DISTANCE_ACCURACY_VALUE',
'Maximum model space distance between geometric entities at asserted c
onnectivities');
#205=(
GEOMETRIC_REPRESENTATION_CONTEXT(3)
GLOBAL_UNCERTAINTY_ASSIGNED_CONTEXT((#203))
GLOBAL_UNIT_ASSIGNED_CONTEXT((#207,#209,#210))
REPRESENTATION_CONTEXT('','3D')
);
#206=(
GEOMETRIC_REPRESENTATION_CONTEXT(3)
GLOBAL_UNCERTAINTY_ASSIGNED_CONTEXT((#204))
GLOBAL_UNIT_ASSIGNED_CONTEXT((#207,#209,#210))
REPRESENTATION_CONTEXT('','3D')
);
#207=(
LENGTH_UNIT()
NAMED_UNIT(*)
SI_UNIT(.MILLI.,.METRE.)
);
#208=(
LENGTH_UNIT()
NAMED_UNIT(*)
SI_UNIT($,.METRE.)
);
#209=(
NAMED_UNIT(*)
PLANE_ANGLE_UNIT()
SI_UNIT($,.RADIAN.)
);
#210=(
NAMED_UNIT(*)
SI_UNIT($,.STERADIAN.)
SOLID_ANGLE_UNIT()
);
#211=SHAPE_DEFINITION_REPRESENTATION(#212,#213);
#212=PRODUCT_DEFINITION_SHAPE('',$,#215);
#213=SHAPE_REPRESENTATION('',(#122),#205);
#214=PRODUCT_DEFINITION_CONTEXT('part definition',#219,'design');
#215=PRODUCT_DEFINITION('KB08/12,5','KB08/12,5 v2',#216,#214);
#216=PRODUCT_DEFINITION_FORMATION('',$,#221);
#217=PRODUCT_RELATED_PRODUCT_CATEGORY('KB08/12,5 v2','KB08/12,5 v2',(#221));
#218=APPLICATION_PROTOCOL_DEFINITION('international standard',
'automotive_design',2009,#219);
#219=APPLICATION_CONTEXT(
'Core Data for Automotive Mechanical Design Process');
#220=PRODUCT_CONTEXT('part definition',#219,'mechanical');
#221=PRODUCT('KB08/12,5','KB08/12,5 v2',$,(#220));
#222=PRESENTATION_STYLE_ASSIGNMENT((#223));
#223=SURFACE_STYLE_USAGE(.BOTH.,#224);
#224=SURFACE_SIDE_STYLE('',(#225));
#225=SURFACE_STYLE_FILL_AREA(#226);
#226=FILL_AREA_STYLE('Steel - Satin',(#227));
#227=FILL_AREA_STYLE_COLOUR('Steel - Satin',#228);
#228=COLOUR_RGB('Steel - Satin',0.627450980392157,0.627450980392157,0.627450980392157);
ENDSEC;
END-ISO-10303-21;
