ISO-10303-21;
HEADER;
/* Generated by software containing ST-Developer
 * from STEP Tools, Inc. (www.steptools.com) 
 */

FILE_DESCRIPTION(
/* description */ (''),
/* implementation_level */ '2;1');

FILE_NAME(
/* name */ '08bffe5a-ded3-4266-9fc1-8c2418bd3ca7.stp',
/* time_stamp */ '2024-10-08T19:10:27Z',
/* author */ (''),
/* organization */ (''),
/* preprocessor_version */ 'ST-DEVELOPER v20',
/* originating_system */ 'Autodesk Translation Framework v13.20.0.188',

/* authorisation */ '');

FILE_SCHEMA (('AUTOMOTIVE_DESIGN { 1 0 10303 214 3 1 1 }'));
ENDSEC;

DATA;
#10=MECHANICAL_DESIGN_GEOMETRIC_PRESENTATION_REPRESENTATION('',(#13),#606);
#11=SHAPE_REPRESENTATION_RELATIONSHIP('SRR','None',#613,#12);
#12=ADVANCED_BREP_SHAPE_REPRESENTATION('',(#14),#605);
#13=STYLED_ITEM('',(#622),#14);
#14=MANIFOLD_SOLID_BREP('Body1',#342);
#15=FACE_BOUND('',#62,.T.);
#16=FACE_BOUND('',#63,.T.);
#17=FACE_BOUND('',#64,.T.);
#18=FACE_BOUND('',#67,.T.);
#19=FACE_BOUND('',#68,.T.);
#20=FACE_BOUND('',#69,.T.);
#21=FACE_BOUND('',#73,.T.);
#22=PLANE('',#383);
#23=PLANE('',#384);
#24=PLANE('',#389);
#25=PLANE('',#392);
#26=PLANE('',#393);
#27=PLANE('',#394);
#28=PLANE('',#395);
#29=PLANE('',#396);
#30=PLANE('',#397);
#31=FACE_OUTER_BOUND('',#51,.T.);
#32=FACE_OUTER_BOUND('',#52,.T.);
#33=FACE_OUTER_BOUND('',#53,.T.);
#34=FACE_OUTER_BOUND('',#54,.T.);
#35=FACE_OUTER_BOUND('',#55,.T.);
#36=FACE_OUTER_BOUND('',#56,.T.);
#37=FACE_OUTER_BOUND('',#57,.T.);
#38=FACE_OUTER_BOUND('',#58,.T.);
#39=FACE_OUTER_BOUND('',#59,.T.);
#40=FACE_OUTER_BOUND('',#60,.T.);
#41=FACE_OUTER_BOUND('',#61,.T.);
#42=FACE_OUTER_BOUND('',#65,.T.);
#43=FACE_OUTER_BOUND('',#66,.T.);
#44=FACE_OUTER_BOUND('',#70,.T.);
#45=FACE_OUTER_BOUND('',#71,.T.);
#46=FACE_OUTER_BOUND('',#72,.T.);
#47=FACE_OUTER_BOUND('',#74,.T.);
#48=FACE_OUTER_BOUND('',#75,.T.);
#49=FACE_OUTER_BOUND('',#76,.T.);
#50=FACE_OUTER_BOUND('',#77,.T.);
#51=EDGE_LOOP('',(#221,#222,#223,#224));
#52=EDGE_LOOP('',(#225,#226,#227,#228));
#53=EDGE_LOOP('',(#229,#230,#231,#232));
#54=EDGE_LOOP('',(#233,#234,#235,#236));
#55=EDGE_LOOP('',(#237,#238,#239,#240));
#56=EDGE_LOOP('',(#241,#242,#243,#244));
#57=EDGE_LOOP('',(#245,#246,#247,#248));
#58=EDGE_LOOP('',(#249,#250,#251,#252));
#59=EDGE_LOOP('',(#253,#254,#255,#256));
#60=EDGE_LOOP('',(#257));
#61=EDGE_LOOP('',(#258));
#62=EDGE_LOOP('',(#259,#260,#261,#262));
#63=EDGE_LOOP('',(#263,#264,#265,#266));
#64=EDGE_LOOP('',(#267));
#65=EDGE_LOOP('',(#268,#269,#270,#271));
#66=EDGE_LOOP('',(#272));
#67=EDGE_LOOP('',(#273,#274,#275,#276));
#68=EDGE_LOOP('',(#277,#278,#279,#280));
#69=EDGE_LOOP('',(#281));
#70=EDGE_LOOP('',(#282,#283,#284,#285));
#71=EDGE_LOOP('',(#286,#287,#288,#289));
#72=EDGE_LOOP('',(#290,#291,#292,#293));
#73=EDGE_LOOP('',(#294));
#74=EDGE_LOOP('',(#295,#296,#297,#298));
#75=EDGE_LOOP('',(#299,#300,#301,#302));
#76=EDGE_LOOP('',(#303,#304,#305,#306));
#77=EDGE_LOOP('',(#307,#308,#309,#310));
#78=LINE('',#513,#101);
#79=LINE('',#516,#102);
#80=LINE('',#522,#103);
#81=LINE('',#528,#104);
#82=LINE('',#537,#105);
#83=LINE('',#540,#106);
#84=LINE('',#546,#107);
#85=LINE('',#552,#108);
#86=LINE('',#560,#109);
#87=LINE('',#571,#110);
#88=LINE('',#575,#111);
#89=LINE('',#580,#112);
#90=LINE('',#582,#113);
#91=LINE('',#584,#114);
#92=LINE('',#585,#115);
#93=LINE('',#588,#116);
#94=LINE('',#590,#117);
#95=LINE('',#591,#118);
#96=LINE('',#594,#119);
#97=LINE('',#596,#120);
#98=LINE('',#597,#121);
#99=LINE('',#599,#122);
#100=LINE('',#600,#123);
#101=VECTOR('',#404,10.);
#102=VECTOR('',#407,10.);
#103=VECTOR('',#414,10.);
#104=VECTOR('',#421,10.);
#105=VECTOR('',#432,10.);
#106=VECTOR('',#435,10.);
#107=VECTOR('',#442,10.);
#108=VECTOR('',#449,10.);
#109=VECTOR('',#460,17.5);
#110=VECTOR('',#475,30.);
#111=VECTOR('',#480,16.75);
#112=VECTOR('',#485,10.);
#113=VECTOR('',#486,10.);
#114=VECTOR('',#487,10.);
#115=VECTOR('',#488,10.);
#116=VECTOR('',#491,10.);
#117=VECTOR('',#492,10.);
#118=VECTOR('',#493,10.);
#119=VECTOR('',#496,10.);
#120=VECTOR('',#497,10.);
#121=VECTOR('',#498,10.);
#122=VECTOR('',#501,10.);
#123=VECTOR('',#502,10.);
#124=CIRCLE('',#357,19.7);
#125=CIRCLE('',#358,19.7);
#126=CIRCLE('',#360,3.30000000000006);
#127=CIRCLE('',#361,3.30000000000006);
#128=CIRCLE('',#363,26.3);
#129=CIRCLE('',#364,26.3);
#130=CIRCLE('',#366,3.29999999999999);
#131=CIRCLE('',#367,3.29999999999999);
#132=CIRCLE('',#369,19.7);
#133=CIRCLE('',#370,19.7);
#134=CIRCLE('',#372,3.30000000000001);
#135=CIRCLE('',#373,3.30000000000001);
#136=CIRCLE('',#375,26.3);
#137=CIRCLE('',#376,26.3);
#138=CIRCLE('',#378,3.29999999999994);
#139=CIRCLE('',#379,3.29999999999994);
#140=CIRCLE('',#381,17.5);
#141=CIRCLE('',#382,17.5);
#142=CIRCLE('',#385,30.);
#143=CIRCLE('',#386,16.75);
#144=CIRCLE('',#388,30.);
#145=CIRCLE('',#391,16.75);
#146=VERTEX_POINT('',#509);
#147=VERTEX_POINT('',#510);
#148=VERTEX_POINT('',#512);
#149=VERTEX_POINT('',#514);
#150=VERTEX_POINT('',#518);
#151=VERTEX_POINT('',#520);
#152=VERTEX_POINT('',#524);
#153=VERTEX_POINT('',#526);
#154=VERTEX_POINT('',#533);
#155=VERTEX_POINT('',#534);
#156=VERTEX_POINT('',#536);
#157=VERTEX_POINT('',#538);
#158=VERTEX_POINT('',#542);
#159=VERTEX_POINT('',#544);
#160=VERTEX_POINT('',#548);
#161=VERTEX_POINT('',#550);
#162=VERTEX_POINT('',#557);
#163=VERTEX_POINT('',#559);
#164=VERTEX_POINT('',#564);
#165=VERTEX_POINT('',#566);
#166=VERTEX_POINT('',#569);
#167=VERTEX_POINT('',#574);
#168=VERTEX_POINT('',#578);
#169=VERTEX_POINT('',#579);
#170=VERTEX_POINT('',#581);
#171=VERTEX_POINT('',#583);
#172=VERTEX_POINT('',#587);
#173=VERTEX_POINT('',#589);
#174=VERTEX_POINT('',#593);
#175=VERTEX_POINT('',#595);
#176=EDGE_CURVE('',#146,#147,#124,.T.);
#177=EDGE_CURVE('',#148,#146,#78,.T.);
#178=EDGE_CURVE('',#149,#148,#125,.T.);
#179=EDGE_CURVE('',#149,#147,#79,.T.);
#180=EDGE_CURVE('',#147,#150,#126,.T.);
#181=EDGE_CURVE('',#151,#149,#127,.T.);
#182=EDGE_CURVE('',#151,#150,#80,.T.);
#183=EDGE_CURVE('',#150,#152,#128,.T.);
#184=EDGE_CURVE('',#153,#151,#129,.T.);
#185=EDGE_CURVE('',#153,#152,#81,.T.);
#186=EDGE_CURVE('',#152,#146,#130,.T.);
#187=EDGE_CURVE('',#148,#153,#131,.T.);
#188=EDGE_CURVE('',#154,#155,#132,.T.);
#189=EDGE_CURVE('',#156,#154,#82,.T.);
#190=EDGE_CURVE('',#157,#156,#133,.T.);
#191=EDGE_CURVE('',#157,#155,#83,.T.);
#192=EDGE_CURVE('',#155,#158,#134,.T.);
#193=EDGE_CURVE('',#159,#157,#135,.T.);
#194=EDGE_CURVE('',#159,#158,#84,.T.);
#195=EDGE_CURVE('',#158,#160,#136,.T.);
#196=EDGE_CURVE('',#161,#159,#137,.T.);
#197=EDGE_CURVE('',#161,#160,#85,.T.);
#198=EDGE_CURVE('',#160,#154,#138,.T.);
#199=EDGE_CURVE('',#156,#161,#139,.T.);
#200=EDGE_CURVE('',#162,#162,#140,.T.);
#201=EDGE_CURVE('',#162,#163,#86,.T.);
#202=EDGE_CURVE('',#163,#163,#141,.T.);
#203=EDGE_CURVE('',#164,#164,#142,.T.);
#204=EDGE_CURVE('',#165,#165,#143,.T.);
#205=EDGE_CURVE('',#166,#166,#144,.T.);
#206=EDGE_CURVE('',#166,#164,#87,.T.);
#207=EDGE_CURVE('',#165,#167,#88,.T.);
#208=EDGE_CURVE('',#167,#167,#145,.T.);
#209=EDGE_CURVE('',#168,#169,#89,.T.);
#210=EDGE_CURVE('',#169,#170,#90,.T.);
#211=EDGE_CURVE('',#171,#170,#91,.T.);
#212=EDGE_CURVE('',#168,#171,#92,.T.);
#213=EDGE_CURVE('',#172,#168,#93,.T.);
#214=EDGE_CURVE('',#173,#171,#94,.T.);
#215=EDGE_CURVE('',#172,#173,#95,.T.);
#216=EDGE_CURVE('',#174,#172,#96,.T.);
#217=EDGE_CURVE('',#175,#173,#97,.T.);
#218=EDGE_CURVE('',#174,#175,#98,.T.);
#219=EDGE_CURVE('',#169,#174,#99,.T.);
#220=EDGE_CURVE('',#170,#175,#100,.T.);
#221=ORIENTED_EDGE('',*,*,#176,.F.);
#222=ORIENTED_EDGE('',*,*,#177,.F.);
#223=ORIENTED_EDGE('',*,*,#178,.F.);
#224=ORIENTED_EDGE('',*,*,#179,.T.);
#225=ORIENTED_EDGE('',*,*,#180,.F.);
#226=ORIENTED_EDGE('',*,*,#179,.F.);
#227=ORIENTED_EDGE('',*,*,#181,.F.);
#228=ORIENTED_EDGE('',*,*,#182,.T.);
#229=ORIENTED_EDGE('',*,*,#183,.F.);
#230=ORIENTED_EDGE('',*,*,#182,.F.);
#231=ORIENTED_EDGE('',*,*,#184,.F.);
#232=ORIENTED_EDGE('',*,*,#185,.T.);
#233=ORIENTED_EDGE('',*,*,#186,.F.);
#234=ORIENTED_EDGE('',*,*,#185,.F.);
#235=ORIENTED_EDGE('',*,*,#187,.F.);
#236=ORIENTED_EDGE('',*,*,#177,.T.);
#237=ORIENTED_EDGE('',*,*,#188,.F.);
#238=ORIENTED_EDGE('',*,*,#189,.F.);
#239=ORIENTED_EDGE('',*,*,#190,.F.);
#240=ORIENTED_EDGE('',*,*,#191,.T.);
#241=ORIENTED_EDGE('',*,*,#192,.F.);
#242=ORIENTED_EDGE('',*,*,#191,.F.);
#243=ORIENTED_EDGE('',*,*,#193,.F.);
#244=ORIENTED_EDGE('',*,*,#194,.T.);
#245=ORIENTED_EDGE('',*,*,#195,.F.);
#246=ORIENTED_EDGE('',*,*,#194,.F.);
#247=ORIENTED_EDGE('',*,*,#196,.F.);
#248=ORIENTED_EDGE('',*,*,#197,.T.);
#249=ORIENTED_EDGE('',*,*,#198,.F.);
#250=ORIENTED_EDGE('',*,*,#197,.F.);
#251=ORIENTED_EDGE('',*,*,#199,.F.);
#252=ORIENTED_EDGE('',*,*,#189,.T.);
#253=ORIENTED_EDGE('',*,*,#200,.F.);
#254=ORIENTED_EDGE('',*,*,#201,.T.);
#255=ORIENTED_EDGE('',*,*,#202,.F.);
#256=ORIENTED_EDGE('',*,*,#201,.F.);
#257=ORIENTED_EDGE('',*,*,#200,.T.);
#258=ORIENTED_EDGE('',*,*,#203,.F.);
#259=ORIENTED_EDGE('',*,*,#176,.T.);
#260=ORIENTED_EDGE('',*,*,#180,.T.);
#261=ORIENTED_EDGE('',*,*,#183,.T.);
#262=ORIENTED_EDGE('',*,*,#186,.T.);
#263=ORIENTED_EDGE('',*,*,#188,.T.);
#264=ORIENTED_EDGE('',*,*,#192,.T.);
#265=ORIENTED_EDGE('',*,*,#195,.T.);
#266=ORIENTED_EDGE('',*,*,#198,.T.);
#267=ORIENTED_EDGE('',*,*,#204,.T.);
#268=ORIENTED_EDGE('',*,*,#205,.F.);
#269=ORIENTED_EDGE('',*,*,#206,.T.);
#270=ORIENTED_EDGE('',*,*,#203,.T.);
#271=ORIENTED_EDGE('',*,*,#206,.F.);
#272=ORIENTED_EDGE('',*,*,#205,.T.);
#273=ORIENTED_EDGE('',*,*,#178,.T.);
#274=ORIENTED_EDGE('',*,*,#187,.T.);
#275=ORIENTED_EDGE('',*,*,#184,.T.);
#276=ORIENTED_EDGE('',*,*,#181,.T.);
#277=ORIENTED_EDGE('',*,*,#190,.T.);
#278=ORIENTED_EDGE('',*,*,#199,.T.);
#279=ORIENTED_EDGE('',*,*,#196,.T.);
#280=ORIENTED_EDGE('',*,*,#193,.T.);
#281=ORIENTED_EDGE('',*,*,#202,.T.);
#282=ORIENTED_EDGE('',*,*,#204,.F.);
#283=ORIENTED_EDGE('',*,*,#207,.T.);
#284=ORIENTED_EDGE('',*,*,#208,.F.);
#285=ORIENTED_EDGE('',*,*,#207,.F.);
#286=ORIENTED_EDGE('',*,*,#209,.T.);
#287=ORIENTED_EDGE('',*,*,#210,.T.);
#288=ORIENTED_EDGE('',*,*,#211,.F.);
#289=ORIENTED_EDGE('',*,*,#212,.F.);
#290=ORIENTED_EDGE('',*,*,#213,.T.);
#291=ORIENTED_EDGE('',*,*,#212,.T.);
#292=ORIENTED_EDGE('',*,*,#214,.F.);
#293=ORIENTED_EDGE('',*,*,#215,.F.);
#294=ORIENTED_EDGE('',*,*,#208,.T.);
#295=ORIENTED_EDGE('',*,*,#216,.T.);
#296=ORIENTED_EDGE('',*,*,#215,.T.);
#297=ORIENTED_EDGE('',*,*,#217,.F.);
#298=ORIENTED_EDGE('',*,*,#218,.F.);
#299=ORIENTED_EDGE('',*,*,#219,.T.);
#300=ORIENTED_EDGE('',*,*,#218,.T.);
#301=ORIENTED_EDGE('',*,*,#220,.F.);
#302=ORIENTED_EDGE('',*,*,#210,.F.);
#303=ORIENTED_EDGE('',*,*,#220,.T.);
#304=ORIENTED_EDGE('',*,*,#217,.T.);
#305=ORIENTED_EDGE('',*,*,#214,.T.);
#306=ORIENTED_EDGE('',*,*,#211,.T.);
#307=ORIENTED_EDGE('',*,*,#219,.F.);
#308=ORIENTED_EDGE('',*,*,#209,.F.);
#309=ORIENTED_EDGE('',*,*,#213,.F.);
#310=ORIENTED_EDGE('',*,*,#216,.F.);
#311=CYLINDRICAL_SURFACE('',#356,19.7);
#312=CYLINDRICAL_SURFACE('',#359,3.30000000000006);
#313=CYLINDRICAL_SURFACE('',#362,26.3);
#314=CYLINDRICAL_SURFACE('',#365,3.29999999999999);
#315=CYLINDRICAL_SURFACE('',#368,19.7);
#316=CYLINDRICAL_SURFACE('',#371,3.30000000000001);
#317=CYLINDRICAL_SURFACE('',#374,26.3);
#318=CYLINDRICAL_SURFACE('',#377,3.29999999999994);
#319=CYLINDRICAL_SURFACE('',#380,17.5);
#320=CYLINDRICAL_SURFACE('',#387,30.);
#321=CYLINDRICAL_SURFACE('',#390,16.75);
#322=ADVANCED_FACE('',(#31),#311,.T.);
#323=ADVANCED_FACE('',(#32),#312,.F.);
#324=ADVANCED_FACE('',(#33),#313,.F.);
#325=ADVANCED_FACE('',(#34),#314,.F.);
#326=ADVANCED_FACE('',(#35),#315,.T.);
#327=ADVANCED_FACE('',(#36),#316,.F.);
#328=ADVANCED_FACE('',(#37),#317,.F.);
#329=ADVANCED_FACE('',(#38),#318,.F.);
#330=ADVANCED_FACE('',(#39),#319,.T.);
#331=ADVANCED_FACE('',(#40),#22,.T.);
#332=ADVANCED_FACE('',(#41,#15,#16,#17),#23,.F.);
#333=ADVANCED_FACE('',(#42),#320,.T.);
#334=ADVANCED_FACE('',(#43,#18,#19,#20),#24,.T.);
#335=ADVANCED_FACE('',(#44),#321,.T.);
#336=ADVANCED_FACE('',(#45),#25,.T.);
#337=ADVANCED_FACE('',(#46,#21),#26,.T.);
#338=ADVANCED_FACE('',(#47),#27,.T.);
#339=ADVANCED_FACE('',(#48),#28,.T.);
#340=ADVANCED_FACE('',(#49),#29,.T.);
#341=ADVANCED_FACE('',(#50),#30,.F.);
#342=CLOSED_SHELL('',(#322,#323,#324,#325,#326,#327,#328,#329,#330,#331,
#332,#333,#334,#335,#336,#337,#338,#339,#340,#341));
#343=DERIVED_UNIT_ELEMENT(#345,1.);
#344=DERIVED_UNIT_ELEMENT(#608,-3.);
#345=(
MASS_UNIT()
NAMED_UNIT(*)
SI_UNIT(.KILO.,.GRAM.)
);
#346=DERIVED_UNIT((#343,#344));
#347=MEASURE_REPRESENTATION_ITEM('density measure',
POSITIVE_RATIO_MEASURE(7850.),#346);
#348=PROPERTY_DEFINITION_REPRESENTATION(#353,#350);
#349=PROPERTY_DEFINITION_REPRESENTATION(#354,#351);
#350=REPRESENTATION('material name',(#352),#605);
#351=REPRESENTATION('density',(#347),#605);
#352=DESCRIPTIVE_REPRESENTATION_ITEM('Steel','Steel');
#353=PROPERTY_DEFINITION('material property','material name',#615);
#354=PROPERTY_DEFINITION('material property','density of part',#615);
#355=AXIS2_PLACEMENT_3D('',#507,#398,#399);
#356=AXIS2_PLACEMENT_3D('',#508,#400,#401);
#357=AXIS2_PLACEMENT_3D('',#511,#402,#403);
#358=AXIS2_PLACEMENT_3D('',#515,#405,#406);
#359=AXIS2_PLACEMENT_3D('',#517,#408,#409);
#360=AXIS2_PLACEMENT_3D('',#519,#410,#411);
#361=AXIS2_PLACEMENT_3D('',#521,#412,#413);
#362=AXIS2_PLACEMENT_3D('',#523,#415,#416);
#363=AXIS2_PLACEMENT_3D('',#525,#417,#418);
#364=AXIS2_PLACEMENT_3D('',#527,#419,#420);
#365=AXIS2_PLACEMENT_3D('',#529,#422,#423);
#366=AXIS2_PLACEMENT_3D('',#530,#424,#425);
#367=AXIS2_PLACEMENT_3D('',#531,#426,#427);
#368=AXIS2_PLACEMENT_3D('',#532,#428,#429);
#369=AXIS2_PLACEMENT_3D('',#535,#430,#431);
#370=AXIS2_PLACEMENT_3D('',#539,#433,#434);
#371=AXIS2_PLACEMENT_3D('',#541,#436,#437);
#372=AXIS2_PLACEMENT_3D('',#543,#438,#439);
#373=AXIS2_PLACEMENT_3D('',#545,#440,#441);
#374=AXIS2_PLACEMENT_3D('',#547,#443,#444);
#375=AXIS2_PLACEMENT_3D('',#549,#445,#446);
#376=AXIS2_PLACEMENT_3D('',#551,#447,#448);
#377=AXIS2_PLACEMENT_3D('',#553,#450,#451);
#378=AXIS2_PLACEMENT_3D('',#554,#452,#453);
#379=AXIS2_PLACEMENT_3D('',#555,#454,#455);
#380=AXIS2_PLACEMENT_3D('',#556,#456,#457);
#381=AXIS2_PLACEMENT_3D('',#558,#458,#459);
#382=AXIS2_PLACEMENT_3D('',#561,#461,#462);
#383=AXIS2_PLACEMENT_3D('',#562,#463,#464);
#384=AXIS2_PLACEMENT_3D('',#563,#465,#466);
#385=AXIS2_PLACEMENT_3D('',#565,#467,#468);
#386=AXIS2_PLACEMENT_3D('',#567,#469,#470);
#387=AXIS2_PLACEMENT_3D('',#568,#471,#472);
#388=AXIS2_PLACEMENT_3D('',#570,#473,#474);
#389=AXIS2_PLACEMENT_3D('',#572,#476,#477);
#390=AXIS2_PLACEMENT_3D('',#573,#478,#479);
#391=AXIS2_PLACEMENT_3D('',#576,#481,#482);
#392=AXIS2_PLACEMENT_3D('',#577,#483,#484);
#393=AXIS2_PLACEMENT_3D('',#586,#489,#490);
#394=AXIS2_PLACEMENT_3D('',#592,#494,#495);
#395=AXIS2_PLACEMENT_3D('',#598,#499,#500);
#396=AXIS2_PLACEMENT_3D('',#601,#503,#504);
#397=AXIS2_PLACEMENT_3D('',#602,#505,#506);
#398=DIRECTION('axis',(0.,0.,1.));
#399=DIRECTION('refdir',(1.,0.,0.));
#400=DIRECTION('center_axis',(-1.,0.,0.));
#401=DIRECTION('ref_axis',(0.,0.5,0.866025403784439));
#402=DIRECTION('center_axis',(-1.,0.,0.));
#403=DIRECTION('ref_axis',(0.,0.5,0.866025403784439));
#404=DIRECTION('',(-1.,0.,0.));
#405=DIRECTION('center_axis',(1.,0.,0.));
#406=DIRECTION('ref_axis',(0.,0.5,0.866025403784439));
#407=DIRECTION('',(-1.,0.,0.));
#408=DIRECTION('center_axis',(-1.,0.,0.));
#409=DIRECTION('ref_axis',(0.,-0.5,-0.866025403784438));
#410=DIRECTION('center_axis',(1.,0.,0.));
#411=DIRECTION('ref_axis',(0.,-0.5,-0.866025403784438));
#412=DIRECTION('center_axis',(-1.,0.,0.));
#413=DIRECTION('ref_axis',(0.,-0.5,-0.866025403784438));
#414=DIRECTION('',(-1.,0.,0.));
#415=DIRECTION('center_axis',(-1.,0.,0.));
#416=DIRECTION('ref_axis',(0.,0.5,0.866025403784439));
#417=DIRECTION('center_axis',(1.,0.,0.));
#418=DIRECTION('ref_axis',(0.,0.5,0.866025403784439));
#419=DIRECTION('center_axis',(-1.,0.,0.));
#420=DIRECTION('ref_axis',(0.,0.5,0.866025403784439));
#421=DIRECTION('',(-1.,0.,0.));
#422=DIRECTION('center_axis',(-1.,0.,0.));
#423=DIRECTION('ref_axis',(0.,-0.500000000000001,0.866025403784438));
#424=DIRECTION('center_axis',(1.,0.,0.));
#425=DIRECTION('ref_axis',(0.,-0.500000000000001,0.866025403784438));
#426=DIRECTION('center_axis',(-1.,0.,0.));
#427=DIRECTION('ref_axis',(0.,-0.500000000000001,0.866025403784438));
#428=DIRECTION('center_axis',(-1.,0.,0.));
#429=DIRECTION('ref_axis',(0.,-0.499999999999999,-0.866025403784439));
#430=DIRECTION('center_axis',(-1.,0.,0.));
#431=DIRECTION('ref_axis',(0.,-0.499999999999999,-0.866025403784439));
#432=DIRECTION('',(-1.,0.,0.));
#433=DIRECTION('center_axis',(1.,0.,0.));
#434=DIRECTION('ref_axis',(0.,-0.499999999999999,-0.866025403784439));
#435=DIRECTION('',(-1.,0.,0.));
#436=DIRECTION('center_axis',(-1.,0.,0.));
#437=DIRECTION('ref_axis',(0.,0.500000000000005,0.866025403784436));
#438=DIRECTION('center_axis',(1.,0.,0.));
#439=DIRECTION('ref_axis',(0.,0.500000000000005,0.866025403784436));
#440=DIRECTION('center_axis',(-1.,0.,0.));
#441=DIRECTION('ref_axis',(0.,0.500000000000005,0.866025403784436));
#442=DIRECTION('',(-1.,0.,0.));
#443=DIRECTION('center_axis',(-1.,0.,0.));
#444=DIRECTION('ref_axis',(0.,-0.5,-0.866025403784439));
#445=DIRECTION('center_axis',(1.,0.,0.));
#446=DIRECTION('ref_axis',(0.,-0.5,-0.866025403784439));
#447=DIRECTION('center_axis',(-1.,0.,0.));
#448=DIRECTION('ref_axis',(0.,-0.5,-0.866025403784439));
#449=DIRECTION('',(-1.,0.,0.));
#450=DIRECTION('center_axis',(-1.,0.,0.));
#451=DIRECTION('ref_axis',(0.,0.500000000000002,-0.866025403784438));
#452=DIRECTION('center_axis',(1.,0.,0.));
#453=DIRECTION('ref_axis',(0.,0.500000000000002,-0.866025403784438));
#454=DIRECTION('center_axis',(-1.,0.,0.));
#455=DIRECTION('ref_axis',(0.,0.500000000000002,-0.866025403784438));
#456=DIRECTION('center_axis',(1.,0.,0.));
#457=DIRECTION('ref_axis',(0.,0.,-1.));
#458=DIRECTION('center_axis',(1.,0.,0.));
#459=DIRECTION('ref_axis',(0.,0.,-1.));
#460=DIRECTION('',(-1.,0.,0.));
#461=DIRECTION('center_axis',(-1.,0.,0.));
#462=DIRECTION('ref_axis',(0.,0.,-1.));
#463=DIRECTION('center_axis',(1.,0.,0.));
#464=DIRECTION('ref_axis',(0.,0.,-1.));
#465=DIRECTION('center_axis',(1.,0.,0.));
#466=DIRECTION('ref_axis',(0.,0.,-1.));
#467=DIRECTION('center_axis',(1.,0.,0.));
#468=DIRECTION('ref_axis',(0.,0.,-1.));
#469=DIRECTION('center_axis',(1.,0.,0.));
#470=DIRECTION('ref_axis',(0.,0.,-1.));
#471=DIRECTION('center_axis',(1.,0.,0.));
#472=DIRECTION('ref_axis',(0.,0.,-1.));
#473=DIRECTION('center_axis',(1.,0.,0.));
#474=DIRECTION('ref_axis',(0.,0.,-1.));
#475=DIRECTION('',(-1.,0.,0.));
#476=DIRECTION('center_axis',(1.,0.,0.));
#477=DIRECTION('ref_axis',(0.,0.,-1.));
#478=DIRECTION('center_axis',(1.,0.,0.));
#479=DIRECTION('ref_axis',(0.,0.,-1.));
#480=DIRECTION('',(-1.,0.,0.));
#481=DIRECTION('center_axis',(-1.,0.,0.));
#482=DIRECTION('ref_axis',(0.,0.,-1.));
#483=DIRECTION('center_axis',(0.,1.,0.));
#484=DIRECTION('ref_axis',(-1.,0.,0.));
#485=DIRECTION('',(-1.,0.,0.));
#486=DIRECTION('',(0.,0.,1.));
#487=DIRECTION('',(-1.,0.,0.));
#488=DIRECTION('',(0.,0.,1.));
#489=DIRECTION('center_axis',(1.,0.,0.));
#490=DIRECTION('ref_axis',(0.,1.,0.));
#491=DIRECTION('',(0.,1.,0.));
#492=DIRECTION('',(0.,1.,0.));
#493=DIRECTION('',(0.,0.,1.));
#494=DIRECTION('center_axis',(0.,-1.,0.));
#495=DIRECTION('ref_axis',(1.,0.,0.));
#496=DIRECTION('',(1.,0.,0.));
#497=DIRECTION('',(1.,0.,0.));
#498=DIRECTION('',(0.,0.,1.));
#499=DIRECTION('center_axis',(-1.,0.,0.));
#500=DIRECTION('ref_axis',(0.,-1.,0.));
#501=DIRECTION('',(0.,-1.,0.));
#502=DIRECTION('',(0.,-1.,0.));
#503=DIRECTION('center_axis',(0.,0.,1.));
#504=DIRECTION('ref_axis',(1.,0.,0.));
#505=DIRECTION('center_axis',(0.,0.,1.));
#506=DIRECTION('ref_axis',(1.,0.,0.));
#507=CARTESIAN_POINT('',(0.,0.,0.));
#508=CARTESIAN_POINT('Origin',(45.,30.,30.));
#509=CARTESIAN_POINT('',(37.,20.15,47.0607004545534));
#510=CARTESIAN_POINT('',(37.,39.85,47.0607004545534));
#511=CARTESIAN_POINT('Origin',(37.,30.,30.));
#512=CARTESIAN_POINT('',(45.,20.15,47.0607004545534));
#513=CARTESIAN_POINT('',(45.,20.15,47.0607004545534));
#514=CARTESIAN_POINT('',(45.,39.85,47.0607004545534));
#515=CARTESIAN_POINT('Origin',(45.,30.,30.));
#516=CARTESIAN_POINT('',(45.,39.85,47.0607004545534));
#517=CARTESIAN_POINT('Origin',(45.,41.5,49.9185842870421));
#518=CARTESIAN_POINT('',(37.,43.15,52.7764681195307));
#519=CARTESIAN_POINT('Origin',(37.,41.5,49.9185842870421));
#520=CARTESIAN_POINT('',(45.,43.15,52.7764681195307));
#521=CARTESIAN_POINT('Origin',(45.,41.5,49.9185842870421));
#522=CARTESIAN_POINT('',(45.,43.15,52.7764681195307));
#523=CARTESIAN_POINT('Origin',(45.,30.,30.));
#524=CARTESIAN_POINT('',(37.,16.85,52.7764681195307));
#525=CARTESIAN_POINT('Origin',(37.,30.,30.));
#526=CARTESIAN_POINT('',(45.,16.85,52.7764681195307));
#527=CARTESIAN_POINT('Origin',(45.,30.,30.));
#528=CARTESIAN_POINT('',(45.,16.85,52.7764681195307));
#529=CARTESIAN_POINT('Origin',(45.,18.5,49.9185842870421));
#530=CARTESIAN_POINT('Origin',(37.,18.5,49.9185842870421));
#531=CARTESIAN_POINT('Origin',(45.,18.5,49.9185842870421));
#532=CARTESIAN_POINT('Origin',(45.,30.,30.));
#533=CARTESIAN_POINT('',(37.,39.8500000000001,12.9392995454465));
#534=CARTESIAN_POINT('',(37.,20.15,12.9392995454466));
#535=CARTESIAN_POINT('Origin',(37.,30.,30.));
#536=CARTESIAN_POINT('',(45.,39.8500000000001,12.9392995454465));
#537=CARTESIAN_POINT('',(45.,39.8500000000001,12.9392995454465));
#538=CARTESIAN_POINT('',(45.,20.15,12.9392995454466));
#539=CARTESIAN_POINT('Origin',(45.,30.,30.));
#540=CARTESIAN_POINT('',(45.,20.15,12.9392995454466));
#541=CARTESIAN_POINT('Origin',(45.,18.5,10.0814157129579));
#542=CARTESIAN_POINT('',(37.,16.85,7.22353188046927));
#543=CARTESIAN_POINT('Origin',(37.,18.5,10.0814157129579));
#544=CARTESIAN_POINT('',(45.,16.85,7.22353188046927));
#545=CARTESIAN_POINT('Origin',(45.,18.5,10.0814157129579));
#546=CARTESIAN_POINT('',(45.,16.85,7.22353188046927));
#547=CARTESIAN_POINT('Origin',(45.,30.,30.));
#548=CARTESIAN_POINT('',(37.,43.15,7.22353188046927));
#549=CARTESIAN_POINT('Origin',(37.,30.,30.));
#550=CARTESIAN_POINT('',(45.,43.15,7.22353188046927));
#551=CARTESIAN_POINT('Origin',(45.,30.,30.));
#552=CARTESIAN_POINT('',(45.,43.15,7.22353188046927));
#553=CARTESIAN_POINT('Origin',(45.,41.5,10.0814157129579));
#554=CARTESIAN_POINT('Origin',(37.,41.5,10.0814157129579));
#555=CARTESIAN_POINT('Origin',(45.,41.5,10.0814157129579));
#556=CARTESIAN_POINT('Origin',(45.,30.,30.));
#557=CARTESIAN_POINT('',(50.,30.,47.5));
#558=CARTESIAN_POINT('Origin',(50.,30.,30.));
#559=CARTESIAN_POINT('',(45.,30.,47.5));
#560=CARTESIAN_POINT('',(45.,30.,47.5));
#561=CARTESIAN_POINT('Origin',(45.,30.,30.));
#562=CARTESIAN_POINT('Origin',(50.,30.,30.));
#563=CARTESIAN_POINT('Origin',(37.,30.,30.));
#564=CARTESIAN_POINT('',(37.,30.,60.));
#565=CARTESIAN_POINT('Origin',(37.,30.,30.));
#566=CARTESIAN_POINT('',(37.,30.,46.75));
#567=CARTESIAN_POINT('Origin',(37.,30.,30.));
#568=CARTESIAN_POINT('Origin',(37.,30.,30.));
#569=CARTESIAN_POINT('',(45.,30.,60.));
#570=CARTESIAN_POINT('Origin',(45.,30.,30.));
#571=CARTESIAN_POINT('',(37.,30.,60.));
#572=CARTESIAN_POINT('Origin',(45.,30.,30.));
#573=CARTESIAN_POINT('Origin',(9.,30.,30.));
#574=CARTESIAN_POINT('',(9.,30.,46.75));
#575=CARTESIAN_POINT('',(9.,30.,46.75));
#576=CARTESIAN_POINT('Origin',(9.,30.,30.));
#577=CARTESIAN_POINT('Origin',(9.,60.,0.));
#578=CARTESIAN_POINT('',(9.,60.,0.));
#579=CARTESIAN_POINT('',(0.,60.,0.));
#580=CARTESIAN_POINT('',(9.,60.,0.));
#581=CARTESIAN_POINT('',(0.,60.,60.));
#582=CARTESIAN_POINT('',(0.,60.,0.));
#583=CARTESIAN_POINT('',(9.,60.,60.));
#584=CARTESIAN_POINT('',(9.,60.,60.));
#585=CARTESIAN_POINT('',(9.,60.,0.));
#586=CARTESIAN_POINT('Origin',(9.,0.,0.));
#587=CARTESIAN_POINT('',(9.,0.,0.));
#588=CARTESIAN_POINT('',(9.,0.,0.));
#589=CARTESIAN_POINT('',(9.,0.,60.));
#590=CARTESIAN_POINT('',(9.,0.,60.));
#591=CARTESIAN_POINT('',(9.,0.,0.));
#592=CARTESIAN_POINT('Origin',(0.,0.,0.));
#593=CARTESIAN_POINT('',(0.,0.,0.));
#594=CARTESIAN_POINT('',(0.,0.,0.));
#595=CARTESIAN_POINT('',(0.,0.,60.));
#596=CARTESIAN_POINT('',(0.,0.,60.));
#597=CARTESIAN_POINT('',(0.,0.,0.));
#598=CARTESIAN_POINT('Origin',(0.,60.,0.));
#599=CARTESIAN_POINT('',(0.,60.,0.));
#600=CARTESIAN_POINT('',(0.,60.,60.));
#601=CARTESIAN_POINT('Origin',(4.5,30.,60.));
#602=CARTESIAN_POINT('Origin',(4.5,30.,0.));
#603=UNCERTAINTY_MEASURE_WITH_UNIT(LENGTH_MEASURE(0.01),#607,
'DISTANCE_ACCURACY_VALUE',
'Maximum model space distance between geometric entities at asserted c
onnectivities');
#604=UNCERTAINTY_MEASURE_WITH_UNIT(LENGTH_MEASURE(0.01),#607,
'DISTANCE_ACCURACY_VALUE',
'Maximum model space distance between geometric entities at asserted c
onnectivities');
#605=(
GEOMETRIC_REPRESENTATION_CONTEXT(3)
GLOBAL_UNCERTAINTY_ASSIGNED_CONTEXT((#603))
GLOBAL_UNIT_ASSIGNED_CONTEXT((#607,#609,#610))
REPRESENTATION_CONTEXT('','3D')
);
#606=(
GEOMETRIC_REPRESENTATION_CONTEXT(3)
GLOBAL_UNCERTAINTY_ASSIGNED_CONTEXT((#604))
GLOBAL_UNIT_ASSIGNED_CONTEXT((#607,#609,#610))
REPRESENTATION_CONTEXT('','3D')
);
#607=(
LENGTH_UNIT()
NAMED_UNIT(*)
SI_UNIT(.MILLI.,.METRE.)
);
#608=(
LENGTH_UNIT()
NAMED_UNIT(*)
SI_UNIT($,.METRE.)
);
#609=(
NAMED_UNIT(*)
PLANE_ANGLE_UNIT()
SI_UNIT($,.RADIAN.)
);
#610=(
NAMED_UNIT(*)
SI_UNIT($,.STERADIAN.)
SOLID_ANGLE_UNIT()
);
#611=SHAPE_DEFINITION_REPRESENTATION(#612,#613);
#612=PRODUCT_DEFINITION_SHAPE('',$,#615);
#613=SHAPE_REPRESENTATION('',(#355),#605);
#614=PRODUCT_DEFINITION_CONTEXT('part definition',#619,'design');
#615=PRODUCT_DEFINITION('SE 01_055','SE 01_055 v1',#616,#614);
#616=PRODUCT_DEFINITION_FORMATION('',$,#621);
#617=PRODUCT_RELATED_PRODUCT_CATEGORY('SE 01_055 v1','SE 01_055 v1',(#621));
#618=APPLICATION_PROTOCOL_DEFINITION('international standard',
'automotive_design',2009,#619);
#619=APPLICATION_CONTEXT(
'Core Data for Automotive Mechanical Design Process');
#620=PRODUCT_CONTEXT('part definition',#619,'mechanical');
#621=PRODUCT('SE 01_055','SE 01_055 v1',$,(#620));
#622=PRESENTATION_STYLE_ASSIGNMENT((#623));
#623=SURFACE_STYLE_USAGE(.BOTH.,#624);
#624=SURFACE_SIDE_STYLE('',(#625));
#625=SURFACE_STYLE_FILL_AREA(#626);
#626=FILL_AREA_STYLE('Steel - Satin',(#627));
#627=FILL_AREA_STYLE_COLOUR('Steel - Satin',#628);
#628=COLOUR_RGB('Steel - Satin',0.627450980392157,0.627450980392157,0.627450980392157);
ENDSEC;
END-ISO-10303-21;
